Movie List
Monster Bios
Aliens & SDF
Staff of Toho
Actors
DVDs
Blu-rays
Soundtracks
Video Games
Books
Comic Books
Toys
Animation
Television
Box Office
Posters
Concept Art
Pictures
Cutting Room
News
Release Dates

Articles
Interviews
K.W.C.
Media
Toons
Reviews

Forums
Search
Site Staff
Updates



Back to Tablature

The King of the Monsters

 Tabber:
 Film:
 Vocals:
 Artist:
 Type:
 Submitted:

 Miles Imhoff
 
Godzilla: Final Wars (2004)
 -
 Daisuke Yano
 Guitar
 April 30th, 2006 (Last Modified: June 8, 2006)


e---------------------------6---------------8---6-------6------------------:
B---6---8---9---6---8---9-------5---6---8-----------9-------8---9----------:
G--------------------------------------------------------------------------:
D--------------------------------------------------------------------------:
A--------------------------------------------------------------------------:
E--------------------------------------------------------------------------:


e---------------------------6-------------------6--------------------------:
B---6---8---9---6---8---9-------5---6---8---9-------8---5---6--------------:

G--------------------------------------------------------------------------:
D--------------------------------------------------------------------------:
A--------------------------------------------------------------------------:
E--------------------------------------------------------------------------:


Prayer to the Future - Ending [The whistley theme]

 Tabber:
 Film:
 Vocals:
 Artist:
 Type:
 Submitted:

 Miles Imhoff
 Prophecies of Nostradamus
(1974)
 -
 Isao Tomita
 Guitar
 May 1st, 2006


e---2-2---4---6---7---9-11-9---2---4---11---9---6h7---9--------------------:
B--------------------------------------------------------------------------:
G--------------------------------------------------------------------------:
D--------------------------------------------------------------------------:
A--------------------------------------------------------------------------:
E--------------------------------------------------------------------------:


e-------2---4---6---11----9---6h7---9----------2-2-2-2---4---2-2-2---------:
B---4------------------------------------4-4-------------------------------:
G--------------------------------------------------------------------------:
D--------------------------------------------------------------------------:
A--------------------------------------------------------------------------:
E--------------------------------------------------------------------------:

h = hammer-on


Godzilla's Theme

 Tabber:
 Film:
 Vocals:
 Artist:
 Type:
 Submitted:

 Miles Imhoff
 
Various
 -
 Akira Ifukube
 Guitar
 May 2nd, 2006 (Last Modified: June 8, 2006)


e---0---4------------------------------------------------------------------:
B-----------3---4--------------2---1---0------0----------------------------:
G-------------------2---3~------------------------3---2b-------------------:
D--------------------------------------------------------------------------:
A--------------------------------------------------------------------------:
E---0----------------------------------------------------------------------:


e--------------------------------------------------------------------------:
B--------------------------------------------------------------------------:
G--------------------------------------------------------------------------:
D---1---2---3---4------1---2---3---4---------------------------------------:
A--------------------------------------------------------------------------:
E--------------------------------------------------------------------------:


(repeat everything up to this point once)
=============================================================


e--------------------------------------------------------------------------:
B--------------------------------------------------------------------------:
G----------------------------------------------2b---------2---4b--4b-------:
D---2---1---2---4b------2---4---5b-----4---5----------5--------------------:
A--------------------------------------------------------------------------:
E--------------------------------------------------------------------------:

e--------------------------------------------------------------------------:
B--------------------------------------------------------------------------:
G--------4----2------------------------------------------------------------:
D---2~-------------5---4---------------------------------------------------:
A--------------------------------------------------------------------------:
E--------------------------------------------------------------------------:

b = bend
~ = vibrato


Kamacuras' Theme

 Tabber:
 Film:
 Vocals:
 Artist:
 Type:
 Submitted:

 Miles Imhoff
 Son of Godzilla
(1967)
 -
 Masaru Sato
 Guitar
 May 3rd, 2006


---Gm-----F#m----Fm
e---3--------2--------1---------------------------------------------------:
B---3--------2--------1---------------------------------------------------:
G---3--------2--------1---------------------------------------------------:
D---5--------4--------3---------------------------------------------------:
A-------------------------------------------------------------------------:
E-------------------------------------------------------------------------:


e-------------------------------------------------------------------------:
B-------------------------------------------------------------------------:
G-------------------------------------------------------------------------:
D-------------------------------------------------------------------------:
A-------------------------------------------------------------------------:
E---0---3---5---3-5------0---3---5---8p7p6--------------------------------:


e-------------------------------------------------------------------------:
B-------------------------------------------------------------------------:
G-------------------------------------------------------------------------:
D-------------------------------------------------------------------------:
A-------------------------------------------------------------------------:
E---0---3---5---3-5------0---3---5---8p7-10-------------------------------:


e---0---3---5---3-5------0---3---5---8p7p6--------------------------------:
B-------------------------------------------------------------------------:
G-------------------------------------------------------------------------:
D-------------------------------------------------------------------------:
A-------------------------------------------------------------------------:
E---0---3---5---3-5------0---3---5---8p7p6--------------------------------:


e---0---3---5---3-5------0---3---5---8p7-10-------------------------------:
B-------------------------------------------------------------------------:
G-------------------------------------------------------------------------:
D-------------------------------------------------------------------------:
A-------------------------------------------------------------------------:
E---0---3---5---3-5------0---3---5---8p7-10-------------------------------:


-----Gm-----F#m-----Fm
e------3--------2--------1------------------------------------------------:
B------3--------2--------1------------------------------------------------:
G------3--------2--------1------------------------------------------------:
D---5--5-----4--4-----3--3------------------------------------------------:
A-------------------------------------------------------------------------:
E-------------------------------------------------------------------------:


p = pull-off


Maser Tank - Super Low Temperature Attack

 Tabber:
 Film:
 Vocals:
 Artist:
 Type:
 Submitted:

 Miles Imhoff
 Godzilla vs. Destoroyah
(1995)
 -
 Akira Ifukube
 Guitar
 May 4th, 2006


----E-x8 (slow upstrokes)
e---0-------------------------------------------------------------------:
B---0-------------------------------------------------------------------:
G---1-------------------------------------------------------------------:
D---2-------------------------------------------------------------------:
A---2-------------------------------------------------------------------:
E-----------------------------------------------------------------------:


e-----------------------------------------------------------------------:
B-----------------------------------------------------------------------:
G-----------------------------------------------------------------------:
D---7p6h7-7p6h7-7---7-7------7p6h7-10-9-7-7-----------------------------:
A-----------------------------------------------------------------------:
E-----------------------------------------------------------------------:


e-----------------------------------------------------------------------:
B-----------------------------------------------------------------------:
G---9-5/9-9---7---------------------------------------------------------:
D------------------10-----9---7--9-10-9--7-6-7--------------------------:
A-----------------------------------------------------------------------:
E-----------------------------------------------------------------------:


e-----------------------------------------------------------------------:
B-----------------------------------------------------------------------:
G-----------------------------------------------------------------------:
D---7p6h7-7p6h7-7---7-7------7p6h7-10-9-7-7-----------------------------:
A-----------------------------------------------------------------------:
E-----------------------------------------------------------------------:


e-----------------------------------------------------------------------:
B-----------------------------------------------------------------------:
G---9--------7---9----7-------------------------------------------------:
D--------10---------------10--9---7--9-10-9--7-6-7----------------------:
A-----------------------------------------------------------------------:
E-----------------------------------------------------------------------:


e-----------------------------------------------------------------------:
B-----------------------------------------------------------------------:
G-----------------------------------------------------------------------:
D---9-9-9--9-9-9---9-6h7h9---6h7h9---9-9-6------------------------------:
A-----------------------------------------------------------------------:
E-----------------------------------------------------------------------:


e-----------------------------------------------------------------------:
B-----------------------------------------------------------------------:
G-----------------------------------------------------------------------:
D---10-10-10--10-10-10---10-7h9h10---7h9h10---10-10-7-------------------:
A-----------------------------------------------------------------------:
E-----------------------------------------------------------------------:


e-----------------------------------------------------------------------:
B-----------------------------------------------------------------------:
G-----------------------------------------------------------------------:
D---9-9-9--9-9-9---9-6h7h9---6h7h9---9-9-6------------------------------:
A-----------------------------------------------------------------------:
E-----------------------------------------------------------------------:


e-----------------------------------------------------------------------:
B-----------------------------------------------------------------------:
G-----------9----7--------------------9---7-----------------------------:
D---7---10---------10-9--7-6-7---10---------10-9--7-6-7-----------------:
A---------------------------------------------------------7-------------:
E-----------------------------------------------------------------------:


e-----------------------------------------------------------------------:
B-----------------------------------------------------------------------:
G-------------------------------------------------9---7-----------------:
D---7-10-9---7-10-9---7-10-9-6-7---7-6---7---10---------10-9--7-6-7-----:
A---------------------------------------------------------------------7-:
E-----------------------------------------------------------------------:


e-----------------------------------------------------------------------:
B-----------------------------------------------------------------------:
G-----------------------------------------------------------------------:
D---7~~~~---------------------------------------------------------------:
A-----------------------------------------------------------------------:
E-------------0-3-7---5-3-0-2---0--2---7-5-3---0-2----------------------:

e-----------------------------------------------------------------------:
B-----------------------------------------------------------------------:
G-----------------------------------------------------------------------:
D-----------------------------------------------------------------------:
A-----------------------------------------------------------------------:
E---0-3-7---5-3-0-2---0--2---7-5-3-2---0--------------------------------:


e-----------------------------------------------------------------------:
B-----------------------------------------------------------------------:
G-----------------------------------------------------------------------:
D-----------------------------------------------------------------------:
A-----------------------------------------------------------------------:
E---0-3-7---5-3-0-2---0--2---7-5-3---0-2--------------------------------:


e-----------------------------------------------------------------------:
B-----------------------------------------------------------------------:
G-----------------------------------------------------------------------:
D-----------------------------------------------------------------------:
A-----------------------------------------------------------------------:
E---0-3-7---5-3-0-2---0--2---7-5-3-2---0--------------------------------:


/ = slide up
p = pull-off
h = hammer-on

~ = vibrato


Main Title (GMK Godzilla's Theme)

 Tabber:
 Film:
 Vocals:
 Artist:
 Type:
 Submitted:

 Miles Imhoff
 Godzilla, Mothra & King Ghidorah: Giant Monsters All-Out Attack
(2001)
 -
 Ko Otani
 Guitar
 May 5th, 2006


e----------------------------------------------------------------------:
B----------------------------------------------------------------------:
G----------------------------------------------------------------------:
D---7-------7---8------10-------10---8---------------------------------:
A-------7-------------------7------------------------------------------:
E----------------------------------------------------------------------:


(repeat twice)

=========================================================

e-----------8---10--11------10---8--------8----------------------------:
B-------10---------------------------10--------------------------------:
G---9------------------------------------------------------------------:
D----------------------------------------------------------------------:
A----------------------------------------------------------------------:
E----------------------------------------------------------------------:


e-----------8---10--11------10---8---12--------------------------------:
B-------10--------------------------------10---------------------------:
G---9------------------------------------------------------------------:
D----------------------------------------------------------------------:
A----------------------------------------------------------------------:
E----------------------------------------------------------------------:


(repeat once)


Main Title (GxMG Godzilla's Theme)

 Tabber:
 Film:
 Vocals:
 Artist:
 Type:
 Submitted:

 Miles Imhoff
 Godzilla Against Mechagodzilla
(2002)
 -
 Michiru Oshima
 Guitar
 May 7th, 2006


e---------------------------------------------------------------------:
B---------------------------------------------------------------------:
G-------------------------------------------------------------------
--:
D-------------------------------------------------------------------
--:
A---------------------------------------------------5---------------
--:
E---0--3---7--6---0----5---------0--3---7--6---0----------------------:


(repeat)

========================================================================

e------0---------0---3---0---------------0---------0---5---0----------:
B---0---------0-----------------------0---------0---------------------:
G---------------------------------------------------------------------:
D---------------------------------------------------------------------:
A---------------------------------------------------------------------:
E---------------------------------------------------------------------:


e---0---3---5---8---7---3--0----------0---3---5---8---7---3--0--------:
B---------------------------------------------------------------------:
G---------------------------------------------------------------------:
D---------------------------------------------------------------------:
A---------------------------------------------------------------------:
E---0---3---5---8---7---3--0----------0---3---5---8---7---3--0--------:


e---0-----0---7---5---3---0---------0-----0---7---5---3---0-----------:
B-------0-------------------------------0-----------------------------:
G---------------------------------------------------------------------:
D---------------------------------------------------------------------:
A---------------------------------------------------------------------:
E---0-----0---7---5---3---0---------0-----0---7---5---3---0-----------:


e-----0---------------------------------------------------------------:
B---0-----------------------------------------------------------------:
G---------------------------------------------------------------------:
D---------------------------------------------------------------------:
A---------------------------------------------------------------------:
E-----0---------------------------------------------------------------:

Main Title (Terror of Mechagodzilla)

 Tabber:
 Film:
 Vocals:
 Artist:
 Type:
 Submitted:

 Miles Imhoff
 Terror of Mechagodzilla
(1975)
 -
 Akira Ifukube
 Guitar
 May 8th, 2006


Section 1:


e-----------------4------3------------------------------------------
--:
B---3------4--------------------0-----------------------------------
--:
G-------------------------------------------------------------------
--:
D-------------------------------------------------------------------
--:
A-------------------------------------------------------------------
--:
E
---------------------------------------------------------------------:


e------------------------4------------------------------------------
--:
B---3------4------0-------------------------------------------------
--:
G-------------------------------------------------------------------
--:
D-------------------------------------------------------------------
--:
A-------------------------------------------------------------------
--:
E-------------------------------------------------------------------
--:

Section 2:

e-------------------------------------------------------------------
--:
B-------------------------------------------------------------------
--:
G-------------------------------------------------------------------
--:
D-------------------------------------------------------------------
--:
A---3-2-0---3-2-0---3-2-0-3---2-0-3-2-0-----------------------------
--:
E-------------------------------------------------------------------
--:

e-------------------------------------------------------------------
--:
B-------------------------------------------------------------------
--:
G-------------------------------------------------------------------
--:
D---0-------0-------0-----0-------0-------0-0-----------------------
--:
A-----3-2-----3-2-----3-2-----3-2---3-2--------3-3--2-2--0----------
--:
E-------------------------------------------------------------------
--:

e-------------------------------------------------------------------
--:
B---1-0-----1-0-----1-0---1---0---1-0-------------------------------
--:
G-------2-------2-------2-------2-----2-----------------------------
--:
D-------------------------------------------------------------------
--:
A-------------------------------------------------------------------
--:
E-------------------------------------------------------------------
--:

e-------------------------------------------------------------------
--:
B---3-1-0---3-1-0---3-1-0-3---1-0-3-1-0---3-3--1-1--0-0-------------
--:
G--------------------------------------------------------2----------
--:
D-------------------------------------------------------------------
--:
A-------------------------------------------------------------------
--:
E-------------------------------------------------------------------
--:

----Am
---------------------Am----Am -------
e---0-----------------------0-----0---------------------------------
--:
B---1-----------------------1-----1---------------------------------
--:
G---2--2--2--2--2--2--2--2--2--2--2--2---2---2---2----2-----2-----2-
--:
D---2-----------------------2-----2---------------------------------
--:
A---0-----------------------0-----0---------------------------------
--:
E---0-----------------------0-----0---------------------------------
--:

Section 3:

e---------------------------------------------------------------------:
B---3--4----0---------------------------3--4----0---------------------:
G---------3--------0-1-2-3-4------------------3--------0-1-2-3-4------:
D---------------------------------------------------------------------:
A---------------------------------------------------------------------:
E---------------------------------------------------------------------:


(repeat Section 2)


Section 4:

e--------------------------------------0---2-------3------------------:

B---3----------------4-0-0---------4-----------0----------------------:
G----------0-1-2-3-4-----------------------------------3--------------:
D---------------------------------------------------------------------:
A---------------------------------------------------------------------:
E---------------------------------------------------------------------:


Section 5:

e---------------------------------------------------------------------:

B---1------------------------1----------------------------------------:
G----------0-1-2-3-4----------------0-1-2-3-4-------------------------:
D---------------------------------------------------------------------:
A---------------------------------------------------------------------:
E---------------------------------------------------------------------:


Section 6:

e---------------------------------------------------------------------:

B---1-4-0-1---0-------------------------------------------------------:
G-----------------3-2-1-0---------------------------------------------:
D---------------------------------------------------------------------:
A---------------------------------------------------------------------:
E---------------------------------------------------------------------:


(repeat Section 1)

Section 7:

e---------------------------------------------------------------------:

B---4---0-------2-3---------4---0-------2-3---------------------------:
G-----------3-----------------------3---------------------------------:
D---------------------------------------------------------------------:
A---------------------------------------------------------------------:
E---------------------------------------------------------------------:


(repeat Section 2)

(repeat Section 3)

(repeat Section 5)

(repeat Section 6)

(repeat Section 1)

(repeat Section 7)


Godzilla and Nagoya

 Tabber:
 Film:
 Vocals:
 Artist:
 Type:
 Submitted:

 Miles Imhoff
 Mothra vs. Godzilla
(1964)
 -
 Akira Ifukube
 Guitar
 May 8th, 2006


e
---3---3------2-0-3-----0--2--3----0--2--3----0--2--3----0--2------
-:
B--------------------------------------------------------------------:
G-------------------------------------------------------------------
-:
D-------------------------------------------------------------------
-:
A-------------------------------------------------------------------
-:
E-------------------------------------------------------------------
-:


e---5---5------3-2-5-----2--3--5----2--3--5----2--3--5----2--3-------:
B--------------------------------------------------------------------:
G-------------------------------------------------------------------
-:
D-------------------------------------------------------------------
-:
A-------------------------------------------------------------------
-:
E-------------------------------------------------------------------
-:

e---7---7------5-3-7-----3--5--7----3--5--7----3--5--7----3--5-------:
B--------------------------------------------------------------------:
G-------------------------------------------------------------------
-:
D-------------------------------------------------------------------
-:
A-------------------------------------------------------------------
-:
E-------------------------------------------------------------------
-:


e---8-7---7-5---5-3---3-2--------------------------------------------:
B--------------------------------------------------------------------:
G-------------------------------------------------------------------
-:
D-------------------------------------------------------------------
-:
A-------------------------------------------------------------------
-:
E-------------------------------------------------------------------
-:


The Appearance of Mechagodzilla

 Tabber:
 Film:
 Vocals:
 Artist:
 Type:
 Submitted:

 Miles Imhoff
 Godzilla vs. Mechagodzilla
(1974)
 -
 Masaru Sato
 Guitar
 May 8th, 2006

(the famous scene where Mechagodzilla sheds its disguise, easily one of the coolest scenes of the Showa Timeline)

e-------------------------------------------------------------------:
B-------------------------------------------------------------------:
G------------------------------------------------------------------
-:
D-----------------------------0-0----------------------------------
-:
A---0---3---0---------0-3-0---------3---0-0------------------------
-:
E-----------------------------------------------------------------
--:


e---5---8---5------5-5-8-5---11--12------13--14---------------------:
B-------------------------------------------------------------------:
G------------------------------------------------------------------
-:
D-----------------------------------------------------------------
--:
A-----------------------------------------------------------------
--:
E---5---8---5------5-5-8-5---------------------------------------
---:


e---12---11---11\8------13-14---15------0---------------------------:
B-------------------------------------------------------------------:
G-------------------------------------------------------------------:
D-------------------------------------------------------------------:
A-------------------------------------------------------------------:
E---------------------------------------0---------------------------:


e---5---8---5------5-0---0-0-5-5---5-0---0-0-5-5------5-0---0-0-5-5-:
B-------------------------------------------------------------------:
G-------------------------------------------------------------------
:
D-------------------------------------------------------------------
:
A-------------------------------------------------------------------
:
E-------------------------------------------------------------------
:


(dramatic finish!)

e---5---------------------------------------------------------------:
B-------------------------------------------------------------------:
G-------------------------------------------------------------------
:
D-------------------------------------------------------------------
:
A------------------------------------------------------------------
-:
E---5--------------------------------------------------------------
-:


\ = slide down


Monster Island

 Tabber:
 Film:
 Vocals:
 Artist:
 Type:
 Submitted:

 Miles Imhoff
 Godzilla vs. Gigan (1972)
 -
 Akira Ifukube
 Guitar
 May 12th, 2006 (Last Modified: June 8, 2006)


Section 1:

e----------5-----------------------5---------------------------------------:
B---5--------5-------5---------5-----5-5-------8---7-----------------------:
G----------------5-------------------------5-----------5-------------------:
D--------------------------------------------------------------------------:
A--------------------------------------------------------------------------:
E--------------------------------------------------------------------------:


Section 2:

e---0-0-0---0-0-0-0-0-0-0---------0-0-0---0-0-0-0-0-0-0--------------------:
B--------------------------------------------------------------------------:
G--------------------------------------------------------------------------:
D--------------------------------------------------------------------------:
A--------------------------------------------------------------------------:
E---0-0-0---0-0-0-0-0-0-0---------0-0-0---0-0-0-0-0-0-0--------------------:

Section 3:

e--------------------------------------------------------------------------:
B---4------0-----2--3---------2--1-----------------------------------------:
G-------------3---------------------2------3-------------------------------:
D--------------------------------------------------------------------------:
A--------------------------------------------------------------------------:
E--------------------------------------------------------------------------:

-----------------------------------------------
G9 (lightly)
e----------------------------------------------0---------------------------:
B----------------------------------------------0---------------------------:
G---2-------1--0--3--1----0--------------------0---------------------------:
D------------------------------1----4----------0---------------------------:
A----------------------------------------4-----0---------------------------:
E----------------------------------------------0---------------------------:

(Section 2)

(Section 3)

(Section 2)

(Section 1)

(Section 2)


Main Title (Heisei MG's Theme)

 Tabber:
 Film:
 Vocals:
 Artist:
 Type:
 Submitted:

 Miles Imhoff
 Godzilla vs. Mechagodzilla II
(1993)
 -
 Akira Ifukube
 Guitar
 May 15th, 2006


(grand opening!)

----Bm-Bm-Bm-Bm--------------Bm-Bm-Bm-Bm----
e---7--7--7--7---------------7--7--7--7-------------------------------------:
B---7--7--7--7---------------7--7--7--7-------------------------------------:
G---7--7--7--7---------------7--7--7--7-------------------------------------:
D---9--9--9--9---9---9---9---9--9--9--9---9---9---9-------------------------:
A---9--9--9--9---------------9--9--9--9-------------------------------------:
E---7--7--7--7---------------7--7--7--7-------------------------------------:


Section 1:

e---------------------------------------------------------------------------:
B-------------------------------------0h1p0---------------------------------:
G---2------0---0---2----------0---2-----------------------------------------:
D----------------------2----------------------------------------------------:
A---------------------------------------------------------------------------:
E---------------------------------------------------------------------------:


e---------------------------------------------------------------------------:
B---------------------------------------------------------------------------:
G---2---0---0---2-----------0--2--------------------------------------------:
D-------------------2--------------5~----4------4~----2---------------------:
A---------------------------------------------------------------------------:
E---------------------------------------------------------------------------:


e---------------------------------------------------------------------------:
B-------------------------------------0h1p0---------------------------------:
G---2------0---0---2----------0---2-----------------------------------------:
D----------------------2----------------------------------------------------:
A---------------------------------------------------------------------------:
E---------------------------------------------------------------------------:


e---------------------------------------------------------------------------:
B---------------------------------------------------------------------------:
G---2---0---0---2-----------0--2---0----------------------------------------:
D-------------------2------------------4---2--------------------------------:
A---------------------------------------------------------------------------:
E---------------------------------------------------------------------------:


e---------------------------------------------------------------------------:
B-----------------1--0-----0-------------0----------------------------------:
G---2------0---2---------------0--0-----------------------------------------:
D------------------------------------4--------------------------------------:
A---------------------------------------------------------------------------:
E---------------------------------------------------------------------------:


e---------------------------------------------------------------------------:
B-----------------1--0--------0---------------0-----------------------------:
G---2---0-0-0--2------------------0---0-------------------------------------:
D-----------------------------------------4---------------------------------:
A---------------------------------------------------------------------------:
E---------------------------------------------------------------------------:

Section 2:

e---5------3---3---5---0------3---5---7h8p7---------------------------------:
B---------------------------------------------------------------------------:
G---------------------------------------------------------------------------:
D---------------------------------------------------------------------------:
A---------------------------------------------------------------------------:
E---------------------------------------------------------------------------:


e---
5---3---3---5---0-------3--5---3----2------2----0-----------------------:
B---------------------------------------------------------------------------:
G---------------------------------------------------------------------------:
D---------------------------------------------------------------------------:
A---------------------------------------------------------------------------:
E----------------------------------3-----------2----------------------------:


e---5------3---3---5---0------3---5---7h8p7---------------------------------:
B---------------------------------------------------------------------------:
G---------------------------------------------------------------------------:
D---------------------------------------------------------------------------:
A---------------------------------------------------------------------------:
E---------------------------------------------------------------------------:


e---
5---3---3---5---0-------3--5---3---2---0--------------------------------:
B---------------------------------------------------------------------------:
G---------------------------------------------------------------------------:
D---------------------------------------------------------------------------:
A---------------------------------------------------------------------------:
E---------------------------------------------------------------------------:


e---7---5-5-5--7--8--7-----7---3---3---2---7--------------------------------:
B---------------------------------------------------------------------------:
G---------------------------------------------------------------------------:
D---------------------------------------------------------------------------:
A---------------------------------------------------------------------------:
E---------------------------------------------------------------------------:


(let it ring!)

e---2------2----------------------------------------------------------------:
B---------------------------------------------------------------------------:
G---------------------------------------------------------------------------:
D---------------------------------------------------------------------------:
A---------------------------------------------------------------------------:
E---2------2----------------------------------------------------------------:


~ = vibrato
h = hammer-on
p = pull-off


Goten Base Attack

 Tabber:
 Film:
 Vocals:
 Artist:
 Type:
 Submitted:

 Miles Imhoff
 The War in Space (1977)
 -
 Toshiaki Tsushima
 Guitar
 May 20th, 2006


Section 1:

e-----------3~-----------4~------------------------------------------------:
B---1~-----------2~-----------1~---2p0h1-----------------------------------:
G--------------------------------------------------------------------------:
D--------------------------------------------------------------------------:
A--------------------------------------------------------------------------:
E--------------------------------------------------------------------------:


Section 2:

e--------------------------------------------------------------------------:
B-------0------------------------------------------------------------------:
G---------------3-----1------0---------------------------------------------:
D---5\3-----------3\1----------3/5-----------------------------------------:
A----------------------------------2---------------------------------------:
E--------------------------------------------------------------------------:

e---3\1-7-------6-----4------3-1/3-----------------------------------------:
B-----------------6\4--------------0---------------------------------------:
G--------------------------------------------------------------------------:
D--------------------------------------------------------------------------:
A--------------------------------------------------------------------------:
E--------------------------------------------------------------------------:

Section 3:

e-----------0----------2------------8-8--8--8-8----8-8--8--8-8-------------:
B---1---2-------1----------------------------------------------------------:
G--------------------------------------------------------------------------:
D--------------------------------------------------------------------------:
A--------------------------------------------------------------------------:
E--------------------------------------------------------------------------:


(repeat)

Section 4:

--------C5----------C5---------C#5---------C#5---------D#5---------D#5

e---3-3-3-3-3---3-3-3-3-3---4-4-4-4-4---4-4-4-4-4---6-6-6-6-6---6-6-6-6-6--:
B---1-1-1-1-1---1-1-1-1-1---2-2-2-2-2---2-2-2-2-2---4-4-4-4-4---4-4-4-4-4--:
G--------------------------------------------------------------------------:
D--------------------------------------------------------------------------:
A--------------------------------------------------------------------------:
E--------------------------------------------------------------------------:


Section 5:

----E5-E5---E5-E5
e---7--7----7--7-----------------------------------------------------------:
B---5--5----5--5-----------------------------------------------------------:
G--------------------------------------------------------------------------:
D--------------------------------------------------------------------------:
A--------------------------------------------------------------------------:
E--------------------------------------------------------------------------:


(Section 3) x2

(Section 4)


Section 6:

----E5 (let it ring)
e---7----------------------------------------------------------------------:
B---5----------------------------------------------------------------------:
G--------------------------------------------------------------------------:
D--------------------------------------------------------------------------:
A--------------------------------------------------------------------------:
E--------------------------------------------------------------------------:



~ = vibrato
h = hammer-on
p = pull-off

/ = slide up
\ = slide down


Adult Mothra vs. Godzilla

 Tabber:
 Film:
 Vocals:
 Artist:
 Type:
 Submitted:

 Miles Imhoff
 Mothra vs. Godzilla
(1964)
 -
 Akira Ifukube
 Guitar
 May 28th, 2006 (Last Modified: June 8, 2006)


Section 1:

e
---5---7---8-----7------7--------------------------------------------------:
B
----------------------7-------9---8---8-7-6-5------------------------------:
G
---------------------------------------------------------------------------:
D---------------------------------------------------------------------------:
A---------------------------------------------------------------------------:
E---------------------------------------------------------------------------:



e
---5---7---8-----7------7--------------------------------------------------:
B
----------------------7-------9---8---8-7-5-7------------------------------:
G
---------------------------------------------------------------------------:
D---------------------------------------------------------------------------:
A---------------------------------------------------------------------------:
E---------------------------------------------------------------------------:


Section 2:

e
-----------7-----------------7---8---8---7---------------------------------:
B
---5-----------------5-----------------------------------------------------:
G
-------7-----------------7-------------------------------------------------:
D---------------------------------------------------------------------------:
A---------------------------------------------------------------------------:
E---------------------------------------------------------------------------:


(repeat once)


Ending/Sacred Fountain

 Tabber:
 Film:
 Vocals:
 Artist:
 Type:
 Submitted:

 Erik Dietrich
 Godzilla vs. Mothra
(1992)
 -
 Akira Ifukube
 Guitar
 June 4th, 2006

mothra.ptb (Required: Powertab Tab Editor)

(E A D G B E)

--Q. --E E E --Q. ---E E E E E --Q -H. ---------E E Q -+E- E E E
|------------|-6-----5-3---6-5-|-3------------|------------------|
|------------|-----------6-----|----3---------|-4-3--------8-6---|
|------------|-----------------|--------------|-----5--(5)-----8-|
|------------|-----------------|--------------|------------------|
|-5----3-1-0-|-----------------|----5---5--5--|-6---6---6----6---|
|------------|-6---6---6---6---|-6------------|------------------|
---------------Q --Q --Q --Q---- Q -Q --Q -Q ---Q-- Q-- Q--- Q
--Q.---- E-- E- E E E --Q- H. ---------E E Q -+E -E E E --Q -Q -Q -Q
|-6------5---3----6-5-|-3------------|------------------|-------------|
|-3-----(3)-(3)-6-----|----3---------|-4-3--------8-6---|-------------|
|---------------------|--------------|-----5--(5)-----8-|-7--7--7--7--|
|---------------------|--------------|------------------|-8--7--8--7--|
|-----------------6---|-6--5---5--5--|-6---6---6----6---|-------------|
|-6---6------6--------|--------------|------------------|-6--6--6--6--|
-
-Q --Q -----Q--- Q ----Q- Q-- Q- Q ---Q --Q --Q--- Q ----Q- Q -Q -Q
--E E E E Q -E E --E E E E E Q. -----Q. ---E E E E E --+H -----H ----E E
|-6-5-----5--5---|-6-5-----5-5-----|-6-----3-5-2-3---|---------3----------|
|-----8-7------8-|-----8-7---------|-3-------------4-|-(4)-----------6-4--|
|----------------|-----------------|-3---------------|---------------7-5--|
|-8---8---7--7---|-8---8---7----7--|-5---------------|---------5--5-------|
|-5---5---6--6---|-5---5---6----6--|-5---5---5---6---|--6---6--6--6-------|
|----------------|-----------------|-3---3---3---3---|--3---3-------------|
-
-Q --Q --Q -Q ----Q-- Q-- Q--- Q--- Q-- Q --Q --Q -----Q-- Q -Q -Q- E E
--Q -Q -Q -Q ---E E E E Q- Q ---+H -----E E Q ---+Q --E E E E H.
|-------------|-6---5---------|-------------3--|-(3)--------------------|
|-3--3--3--3--|---8---6-8--4--|-(4)-----4-6----|------6-4-4-4-3---------|
|-3--2--3--2--|---------------|----------------|------------------------|
|-------------|-8---7---5-----|----------------|--------------5---5--5--|
|-1-----1-----|------------6--|--6---6--6---6--|--6---6---6-------------|
|-------------|---------------|----------------|------------------------|
-
-H---- H ------Q-- Q --Q -Q---- Q --Q- Q --Q ----Q-- Q-- Q---Q-- Q- Q

--E E E E -E -Q. -----+Q ----E E E E E --Q. -----+Q

|-3-6-5-8-10---------------|-3-6-5-8-10---------------|
|------------11------(11)--|------------11------(11)--|
|--------------------------|--------------------------|
|--------------------------|--------------------------|
|-----8---10-----10---10---|-----8---10-----10---10---|
|-3------------------------|-3------------------------|
-
-Q-- Q ---Q----- Q--- Q ----Q-- Q--- Q -----Q--- Q
---Q..-- S- S -S S -S -S -S- E- +Q----- W-------- +Q
|-10---------------------------------|-10--------(10)--*|
|-12---------------------12-15-(15)--|-12--------(12)--*|
|-12---------------12-14-------------|-12--------(12)--*|
|-12-------------9-------------------|-12--------(12)--*|
|-10----------10---------------------|-10--------(10)--*|
|--------7-10------------------------|-----------------*|

--------------------------------------------------------------------------------

Misc Legend
-----------
| - bar
|| - double bar
||o - repeat start
o|| - repeat end
*| - double bar (ending)
: - bar (freetime)
$ - Segno
& - Coda


Prophecies of Nostradamus Riff

 Tabber:
 Film:
 Vocals:
 Artist:
 Type:
 Submitted:

 Miles Imhoff
 Prophecies of Nostradamus
(1974)
 -
 Isao Tomita
 Guitar
 June 9th, 2006


e--------------------------------------------------------------------------:
B-----------5~--4~-----8---5~-------------5~--4~-----8---5~---17~----------:
G-------2~----------------------------2~-----------------------------------:
D---2-----------------------------2----------------------------------------:
A--------------------------------------------------------------------------:
E--------------------------------------------------------------------------:

e-----------------------------------------------------------------17~------:
B---10~-----11---10---8---10~-----8---10~-----11---10---8---10~------------:
G--------------------------------------------------------------------------:
D--------------------------------------------------------------------------:
A--------------------------------------------------------------------------:
E--------------------------------------------------------------------------:


~ = vibrato

Not
a whole theme in particular, but the high-pitched riff that keeps showing up time and time again. If you want to just play that cool acoustic rhythm in the background, then fingerpick [Am], [Bm], and [Bbm]. As for the guitar solo in the main theme... well, definite brownie points to whomever can send me that tab :)


Prayer for Peace ("Oh Light, Oh Peace")

 Tabber:
 Film:
 Vocals:
 Artist:
 Type:
 Submitted:

 Miles Imhoff
 Godzilla (1954)
 Various Singers
 Akira Ifukube
 Guitar
 June 12th, 2006


(pick the blue notes lightly)

e--------------------------------------------------------------------------:
B--------------------------------------------------------------------------:
G--------------------------------------------------------------------------:
D-----------------------7--------------------------------------------------:
A---8------7-----------------8----7----5----7----8-------------------------:
E-----------------------------------------------------8----7----5----------:


e--------------------------------------------------------------------------:
B--------------------------------------------------------------------------:
G--------------------------------------------------------------------------:
D------------------------------------7---6---------------------------------:
A---8----8----8----8----7--------------------8---7-------------------------:
E-----------------------------------------------------8----7----5----------:


e--------------------------------------------------------------------------:
B--------------------------------------------------------------------------:
G---------------5-----------5----------------------------------------------:
D------7---7B-------9---7------------------------------7-------------------:
A---7------------------------------------7----7----7-------8---8----7------:
E--------------------------------------------------------------------------:


e--------------------------------------------------------------------------:
B--------------------------------------------------------------------------:
G--------------------------------------------------------------------------:
D--------------------------------------------------------------------------:
A---7--5----5---5-----------7--------------------------------5---7---8---7-:
E-------------------8---7-------7----8----7------5---7---8-----------------:


e--------------------------------------------------------------------------:
B--------------------------------------------------------------------------:
G--------------------------------------------------------------------------:
D--------------------------------------------------------------------------:
A---7-------7-----------------------------------------------7----8----8--7-:
E-------7------8---7---7----------7---7--8---8---7-------------------------:



e--------------------------------------------------------------------------:
B--------------------------------------------------------------------------:
G---------------5-----------5----------------------------------------------:
D------7---7B-------9---7-----------------------7----6---------------------:
A---7------------------------------------7----------------8----7-----------:
E--------------------------------------------------------------------------:


B = bend

Spine-chilling theme from the Maestro himself. Adheres to the A harmonic minor scale, which makes it rather user-friendly.


Hedorah's Landfall

 Tabber:
 Film:
 Vocals:
 Artist:
 Type:
 Submitted:

 Miles Imhoff
 Godzilla vs. Hedorah
(1971)
 -
 Riichiro Manabe
 Guitar
 June 25th, 2006


e---20--19--18--17--16-----------------------------------------------------:
B-----------------------20--19--18-----17--16------------------------------:
G----------------------------------------------19--18--17--16--------------:
D--------------------------------------------------------------20--19--18~-:
A--------------------------------------------------------------------------:
E--------------------------------------------------------------------------:

e---------19--------------20------------19----20-------19-----------20-19~-:
B---18------------19-----------------18----19-----18-------19--------------:
G--------------------------------------------------------------------------:
D--------------------------------------------------------------------------:
A--------------------------------------------------------------------------:
E--------------------------------------------------------------------------:

~ = vibrato


Godzilla's Charge

 Tabber:
 Film:
 Vocals:
 Artist:
 Type:
 Submitted:

 Miles Imhoff
 Godzilla vs. Hedorah
(1971)
 -
 Riichiro Manabe
 Guitar
 June 25th, 2006


e-------------/6~~~~-------------------------------------------------------:
B---/5---/5-----------/5------3b---3b-3b-4~----1b---1b-1b-1~---1b-1b-------:
G--------------------------------------------------------------------4~~~~-:
D--------------------------------------------------------------------------:
A--------------------------------------------------------------------------:
E--------------------------------------------------------------------------:


~ = vibrato
b = bend
/ = slide-into


Go, Sanjuro

 Tabber:
 Film:
 Vocals:
 Artist:
 Type:
 Submitted:

 Miles Imhoff
 Yojimbo
(1961)
 -
 Masaru Sato
 Guitar
 June 26th, 2006


e--------------------------------------------------------------------------:
B--------h1---1---1----------------1--2--1----1---1------------------------:
G-----1h3-------------3--3------3---------------3--------3--1--3-----------:
D---3----------------------------------------------------------------------:
A--------------------------------------------------------------------------:
E--------------------------------------------------------------------------:

e------------------------------------------------------1-1b----------------:
B---------------------------1------------------1---------------------------:
G---1--1--1--1-------1---------3-------1-----------3-----------------------:
D----------------3------3----------3-------3-------------------------------:
A--------------------------------------------------------------------------:
E--------------------------------------------------------------------------:

e--------------------------------------------------------------------------:
B------------------1---1---------------------------------------------------:
G--------------------3---3-1-3---1-----------------------------------------:
D---3----2----1----------------3---3------3------1--3~~--------------------:
A--------------------------------------------3-----------------------------:
E--------------------------------------------------------------------------:

h = hammer-on
p = pull-off
b = bend
~ = vibrato


Go-Go in UFO

 Tabber:
 Film:
 Vocals:
 Artist:
 Type:
 Submitted:

 Miles Imhoff
 Konto 55: Grand Outer Space Adventure
(1969)
 -
 Kenjiro Hirose
 Guitar
 June 26th, 2006


e--------------------------------------------------------------------------:
B--------------------------------------------------------------------------:
G--------------------------------------------------------------------------:
D--------------------------------------------------------------------------:
A----------------10---12---------------------------10---12-----------------:
E---10----13--13-----------10---------10----13--13-----------10------------:


e--------------------------------------------------------------------------:
B--------------------------------------------------------------------------:
G------------------------------------------10---10---9---------------------:
-----------------------------12---10-12---------------10---12~------------:
A----------------10---12---------------------------------------------------:
E---10----13--13-----------------------------------------------------------:


~ = vibrato


Kazama's Sacrifice

 Tabber:
 Film:
 Vocals:
 Artist:
 Type:
 Submitted:

 Miles Imhoff
 
Godzilla: Final Wars (2004)
 -
 Keith Emerson
 Guitar
 June 26th, 2006


e--------------------------------------------------------------------------:
B--------------------------------------------------------------------------:
G--------------------------------------------------------------------------:
D------------------------11------------------------------------------------:
A---------------11--12--------11~------9-----------------------------------:
E---9----11--12----------------------------12p11p9---11-12--11-12--11-9~~--:


e--------------------------------------------------------------------------:
B--------------------------------------------------------------------------:
G--------------------------------------------------------------------------:
D--------------------------------------------------------------------------:
A--------------9--11--12b---11b---9-11--9-11-------------------------------:
E---9--11--12---------------------------------11-12--11-12--11-9~~---9~~~~-:

e--------------------------------------------------------------------------:
B-------------------------14-----------------------------------------------:
G----------------13--14--------13~----11-----------------------------------:
D---11----13--14---------------------------14p13p11---13-14--13-14--13-11~~:

A--------------------------------------------------------------------------:
E--------------------------------------------------------------------------:


e--------------------------------------------------------------------------:
B--------------------------------------------------------------------------:
G---------------11--13--14b---13b---11-13--11-13---------------------------:
D---11--13--14------------------------------------13-14--13-14--13-11~~----:

A--------------------------------------------------------------------------:
E--------------------------------------------------------------------------:


e--------------------------------------------------------------------------:
B--------------------------------------------------------------------------:
G--------------------------------------------------------------------------:
D--------------------------------------------------------------------------:
A---11---12---9---9---11------11---12---9---9---11-------------------------:
E--------------------------------------------------------------------------:

(repeat twice)


Outro:

e--------------------------------------------------------------------------:
B--------------------------------------------------------------------------:
G--------------------------------------------------------------------------:
D--------------------------------------------------------------------------:
A---11---12---9---9---11------11---12---9---9---11-------------------------:
E--------------------------------------------------------------------------:


e--------------------------------------------------------------------------:
B--------------------------------------------------------------------------:
G--------------------------------------------------------------------------:
D--------------------------------------------------------------------------:
A---11---12---9---9---11------11---12---9---9---11-------------------------:
E--------------------------------------------------------------------------:


~ = vibrato
b = bend
p = pull-off


Main Title (G98's Theme)

 Tabber:
 Film:
 Vocals:
 Artist:
 Type:
 Submitted:

 Miles Imhoff
 
GODZILLA (1998)
 -
 David Arnold
 Guitar
 June 29th, 2006


Intro:

e---------------------------------------------------------------------------:
B---------------------------------------------------------------------------:
G---------------------------------------------------------------------------:
D----------------9b-------9--8~--------------------9b-------9--11~----------:
A---7---9----10--------7--------------7---9----10--------7------------------:
E---------------------------------------------------------------------------:

e------9--11--12------------------------------------------------------------:
B---9-----------------------------------------------------------------------:
G---------------------------------------------------------------------------:
D---------------------------------------------------------------------------:
A---------------------------------------------------------------------------:
E---------------------------------------------------------------------------:

Body:

e-------------------------------------------------------------9--11--12-----:
B---5--5-5b----7--8-7-8b----7--10-9~----------------------------------------:
G-------------------------------------------6--8b-----6---------------------:
D-------------------------------------8--9--------------9-8~----------------:
A---------------------------------------------------------------------------:
E---------------------------------------------------------------------------:

e---------------------------------------------------------------------------:
B---5--5-5b----7--8-7-8b----7--10-9~----------------------------------------:
G---------------------------------------------------------------------------:
D---------------------------------------------------------------------------:
A---------------------------------------------------------------------------:
E---------------------------------------------------------------------------:

Bridge:

e---------------------------------------------------------------------------:
B-------------------------------------------------6--5--9b------------------:
G--------------------------------------6--8--9b-----------------------------:
D-----------------6--5b---5--6--8~~~~8--------------------------------------:
A---4--6--7b---7------------------------------------------------------------:
E---------------------------------------------------------------------------:

e---9----5----7---12-13-----------------------------------------------------:
B---------------------------------------------------------------------------:
G---------------------------------------------------------------------------:
D---------------------------------------------------------------------------:
A---------------------------------------------------------------------------:
E---------------------------------------------------------------------------:

Explosive Part (pardon the pun):

e---0------------------------------0----------------------------------------:
B---------------------------------------------------------------------------:
G-------9b-----------8-6-8-------------9b-----------8-6-8-------------------:
D-----------9b--8b-------------------------9b--8b---------------------------:
A---------------------------------------------------------------------------:
E---0------------------------------0----------------------------------------:

Vocals:

e---12-----15---------13--15----12-----15---------13--15--------------------:
B---------------14-------------------------14-------------------------------:
G---------------------------------------------------------------------------:
D---------------------------------------------------------------------------:
A---------------------------------------------------------------------------:
E---------------------------------------------------------------------------:

e---15----18----16-----------------15----18----16---------------------------:
B---------------------------------------------------------------------------:
G---------------------------------------------------------------------------:
D--------------------13--11--13---------------------13--11--13--------------:
A---------------------------------------------------------------------------:
E---------------------------------------------------------------------------:

Outro:

e---------------------------------------------------------------------------:
B---20---20\14----8---8\2-------------------15-11-14-11-15----15-11-14-11-15:
G---------------------------------------------------------------------------:
D----------------------------------------5----------------------------------:
A----------------------------10---10\4--------------------------------------:
E---------------------------------------------------------------------------:

\ = slide down
p = pull-off
h = hammer-on
b = bend
~ = vibrato


Note: Play the blue note softly.


Main Title (The Destruction of Hong Kong)

 Tabber:
 Film:
 Vocals:
 Artist:
 Type:
 Submitted:

 Miles Imhoff
 Godzilla vs. Destoroyah
(1995)
 -
 Akira Ifukube
 Guitar
 June 30th, 2006


e--------------------------------------------------------------------------:
B--------------------------------------------------------------------------:
G---2~---0-----------2-0---------------2~---0-----------2-0----------------:
D------------3---2b------3-2--------------------3---2b------3-2------------:
A--------------------------------------------------------------------------:
E--------------------------------------------------------------------------:

e--------------------------------------------------------------------------:
B--------------------------------------------------------------------------:
G------------------------------------0-0-0----0-2b-2b---0-0----------------:
D---0-0-0----0-2-2-2--0-2-3-3-3--2-3--------3--------0b------3-3--2-2---0-0:
A----------4---------------------------------------------------------------
:
E--------------------------------------------------------------------------:

e--------------------------------------------------------------------------:
B--------------------------------------------------------------------------:
G---2-3-0-2b---0----------------------2-3-0-2b---0-------------------------:
D-----------------3--2---0-1-2-3b-------------------3--2---0-1-2-3b--------:
A-------------------------
-------------------------------------------------:
E--------------------------------------------------------------------------:


e--------------------------------------------------------------------------:
B--------------------------------------------------------------------------:
G-----------------------------------0b------0--2b-2b-----------------------:
D---0------0--2b--0-0-2--3b--2-2-3------3-3----------0----0b-1b-2b-3b------:
A------4-4-------------------------------------------
----------------------:
E--------------------------------------------------------------------------:


e--------------------------------------------------------------------------:
B--------------------------------------------------------------------------:
G---------1----------------------------------------------------------------:
D---2~--------0---1--------------------------------------------------------:
A-------------------0---1~-----4---3---2~-----2---1---0--------------------:
E----------------------------------------------------------0---1---2---3b--:


e--------------------------------------------------------------------------:
B--------------------------------------------------------------------------:
G---------1----------------------------------------------------------------:
D---2~--------0---1--------------------------------------------------------:
A-------------------0---1~-----4---3---2~-----2---1---0--------------------:
E----------------------------------------------------------0---1---2---3b--:


e--------------------------------------------------------------------------:
B--------------------------------------------5~~~~~~~----------------------:
G---------------------------2-3-4-5-2---5-4--------------------------------:
D--------------------2~----------------------------------------------------:
A---0-1-2-3-0---3-2
--------------------------------------------------------:
E--------------------------------------------------------------------------:


----A5-----A5-

e--------------------------------------------------------------------------:
B--------------------------------------------------------------------------:
G---2------2---------------------------------------------------------------:
D---2------2---------------------------------------------------------------:
A---0------0---------------------------------------------------------------:
E--------------------------------------------------------------------------:


e--------------------------------------------------------------------------:
B---4b---------------------------3-3-3-3---------3-3-3-3----
---------------:
G------3b--4b------------------------------------------------
--------------:
D-------------3b--
4b-5b--3b-1--0----------0--1-------------1---------------:
A--------------------------------------------------------------------------
:
E------------------------------------------------------------
--------------:

e--------------------------------------------------------------------------:
B-------------4b--------------3-3-3-3----------3-3-3-3---------
------------:
G----------------4b--3b-----------------------------------------
-----------:
D---0b-4b--3b-----------1--0-------------0--1-------------0-----
-----------:
A------------------------------------------------------------
--------------:
E------------------------------------------------------------
--------------:

e--------------------------------------------------------------------------:
B---4b--------3b---------------3-3-3-3----------3-3-3-3------
--------------:
G------4b--3b------------------------------------------------
--------------:
D-----------------0--3b-1--0-------------0--1-------------0--
--------------:
A------------------------------------------------------------
--------------:
E------------------------------------------------------------
--------------:

e--------------------------------------------------------------------------:
B-------------4b------3-3-3-3-----------------------------
-----------------:
G------------------------------------------------------------
--------------:
D---0b-4b--3b-----0-------------0----------------------------
--------------:
A------------------------------------------------------------
--------------:
E------------------------------------------------------------
--------------:

e--------------------------------------------------------------------------:
B-------------4b------3-3-3-3--------------------------------
--------------:
G--------------------------------------------------------------------------:
D---0b-4b--3b-----0-------------0---1~~~~~~~-----------------
--------------:
A--------------------------------------------------------------------------:
E--------------------------------------------------------------------------:

b = bend
~ = vibrato


Note: Play the blue notes softly.


Guitar in the Wilderness

 Tabber:
 Film:
 Vocals:
 Artist:
 Type:
 Submitted:

 Miles Imhoff
 Godzilla vs. Hedorah
(1971)
 -
 Riichiro Manabe
 Guitar
 July 14th, 2006


----B7
e---2---------------------------------------------------------------------:
B---0---------------------------------------------------------------------:
G---2---------------------------------------------------------------------:
D---1---------------------------------------------------------------------:
A---2---------------------------------------------------------------------:
E-------------------------------------------------------------------------:

----E Minor-------------D Major---------------E Minor
e-------------------------------2h3p2-2---2-------------------------------:
B-----------------0---------3-----------3-----0---0---0h3p0-0---0---------:
G---------0-----0---0-----2---2-----------------0---0---------0-----------:
D-------2---0h2---------0-------------------------------------------------:
A-----2-------------------------------------------------------------------:
E---0---------------------------------------------------------------------:

----B Major-------------A Minor--------------E minor
e-----------------2-------------------------------------------------------:
B-------4---4---4---4---1---1-1b---1h3p1-1-0------------------------------:
G---3/4---4---4-----------2------2-----------0---0-0h2p0-0---0------------:
D----------------------------------------------2-----------2--------------:
A-------------------------------------------------------------------------:
E-------------------------------------------------------------------------:


----F#Dim7----D#Dim7----E Minor
e---3---3---------2-----------0-----12------------------------------------:
B-----2---2-----1---1-------0---0------12---------------------------------:
G-------------2---------------------------12------------------------------:
D-----------------------0h2-----------------------------------------------:
A-------------------------------------------------------------------------:
E-------------------------------------------------------------------------:

b = bend
h = hammer-on
p = pull-off
m = palm mute


Note: Play the blue notes softly.


Determined to Protect the Future

 Tabber:
 Film:
 Vocals:
 Artist:
 Type:
 Submitted:

 Miles Imhoff
 Godzilla, Mothra & King Ghidorah: Giant Monsters All-Out Attack
(2001)
 -
 Ko Otani
 Guitar
 July 15th, 2006


[Note: Sections 1 and 2 are the main riff, if you just want to stick to that.]


Intro:

e--------------------------------------------------------------------------:

B---8b-----10------------8-------------------------------------------------:
G----------------10b----------9b---7b--------------------------------------:
D--------------------------------------------------------------------------:
A--------------------------------------------------------------------------:
E--------------------------------------------------------------------------:



Section 1:

e--------------------------------------------------------------------------:

B--------------------------------------------------------------------------:
G---------------------------------------------7-------7--9~----------------:
D---10--9--7b---10--9--7b---10--9--7---9--10------10-----------------------:
A--------------------------------------------------------------------------:
E--------------------------------------------------------------------------:


(Section 1)


Section 2:

(omit the last three notes the first time)

e--------------------------------------------------------------------------:

B---------------------------------------------8-------8--10~-----12--------:
G---10--9--7b---10--9--7b---10--9--7---9--10------10-----------------9----7:

D--------------------------------------------------------------------------:
A--------------------------------------------------------------------------:
E--------------------------------------------------------------------------:

(repeat Section 2)

(Section 1)


Section 3:


(omit the last three notes the first time)

e--------------------------------------------------------------------------:

B---8-10--8------------------10--8--10-------------------------------------:
G------------9----7------9-------------------------------------------------:
D--------------------10----------------------------------------------------:
A--------------------------------------------------------------------------:
E--------------------------------------------------------------------------:

(repeat Section 3)

(Section 1) x2



Section 4:


e--------------------------------------------------------------------------:

B---8--10------------------------------------------------------------------:
G----------9-----------------7---------------------------------------------:
D-----------------7---9--10------10-9-10--9--7-----------------------------:
A--------------------------------------------------------------------------:
E--------------------------------------------------------------------------:


e--------------------------------------------------------------------------:

B--------------------------------------------------------------------------:
G-----------7--9---7-------------------------------------------------------:
D---9---10-----------10-9------7-------------------------------------------:
A--------------------------10----------------------------------------------:
E--------------------------------------------------------------------------:


e--------------------------------------------------------------------------:

B--------------------------------------------------------------------------:
G--------------7-----------------------------------------------------------:
D---7---9--10------10-9-10--9--7-------------------------------------------:
A--------------------------------------------------------------------------:
E--------------------------------------------------------------------------:

!

e--------------------------------------------------------------------------:

B--------------------------------------------------------------------------:
G-----------7--9---10---9---7----------------------------------------------:
D---9---10-----------------------------------------------------------------:
A--------------------------------------------------------------------------:
E--------------------------------------------------------------------------:


e--------------------------------------------------------------------------:

B-----------------------------------10---8---------------------------------:
G--------------7----------------------------10--9--7-----------------------:
D---7---9--10------10-9-10--9--7-------------------------------------------:
A--------------------------------------------------------------------------:
E--------------------------------------------------------------------------:


(Section 1) x2

(Section 2 without the last three notes)


(Section 2 with the last three notes)

(Section 1)


Section 5:


e-----------------------------------------8--------------------------------:
B---8-10--8------------------10--8--10-------12--10------------------------:
G------------9----7------9-------------------------------------------------:
D--------------------10----------------------------------------------------:
A--------------------------------------------------------------------------:
E--------------------------------------------------------------------------:

(Section 1) x2


Section 6:

e--------------------------------------------------------------------------:

B--------------------------------------------------------------------------:
G---10--9--7b---10--9--7b---10--9--7b--------------------------------------:

D----------------------------------------7---5---7~------------------------:
A--------------------------------------------------------------------------:

E--------------------------------------------------------------------------:


Outro:

e--------------------------------------------------------------------------:

B--------------------------------------------------------------------------:
G---10--9--7b---10--9--7b--------------------------------------------------:

D--------------------------10--9--7b--------------------7~~~~--------------:
A---------------------------------------10---8---10------------------------:
E--------------------------------------------------------------------------:


~ = vibrato
b = bend

Note: Play the blue notes softly.


A Miracle on Campus

 Tabber:
 Film:
 Vocals:
 Artist:
 Type:
 Submitted:

 Miles Imhoff
 Godzilla: Tokyo S.O.S.
(2003)
 -
 Michiru Oshima
 Guitar
 July 27th, 2006


(play the first part lightly)

e---------------------------------------------------------------------------:
B---6---5--5------------6---5--5-----5h6p5-------5--------------------------:
G-------------6--6----------------6----------6------------------------------:
D---------------------------------------------------------------------------:
A---------------------------------------------------------------------------:
E-------------------------------------------------------3b----r-------------:

e---------------------------------------------------------------------------:
B---6---5--5------------6---5--5-----5h6p5-------5--------------------------:
G-------------6--6----------------6----------6-------6---5b----r------------:
D---------------------------------------------------------------------------:
A---------------------------------------------------------------------------:
E---------------------------------------------------------------------------:

e---------------------------------------------------------------------------:
B---6---5--5------------6---5--5-----5h6p5-------5--------------------------:
G-------------6--6----------------6----------6-------6---5~-----------------:
D---------------------------------------------------------------------------:
A---------------------------------------------------------------------------:
E---------------------------------------------------------------------------:

e---------------------------------------------------------------------------:
B--------------------------------5-5---------5------------------------------:
G---6---5-5--1-1--4-4--5-5--6-6-------6--5------6--5~~----------------------:
D---------------------------------------------------------------------------:
A---------------------------------------------------------------------------:
E---------------------------------------------------------------------------:

e---------------------------------------------------------------------------:
B---6---5--5------------6---5--5-----5h6p5-------5-------------5b-----------:
G-------------6--6----------------6----------6-------6---5----------6b---5~-:
D---------------------------------------------------------------------------:
A---------------------------------------------------------------------------:
E---------------------------------------------------------------------------:

~ = vibrato
h = hammer-on
p = pull-off
b = bend
r = bend-release


Countdown

 Tabber:
 Film:
 Vocals:
 Artist:
 Type:
 Submitted:

 Miles Imhoff
 Godzilla vs. Biollante
(1989)
 -
 Koichi Sugiyama
 Guitar
 January 13th, 2007


e---13---14---14\5------13-13------------13---14---14\5------13-13----------:
B---------------------------------------------------------------------------:
G---------------------------------------------------------------------------:
D---------------------------------------------------------------------------:
A---------------------------------------------------------------------------:
E---------------------------------------------------------------------------:

e---4---7-8-12-13---14---14--5----4-5-8-4------5----------------------------:
B---------------------------------------------------------------------------:
G---------------------------------------------------------------------------:
D---------------------------------------------------------------------------:
A---------------------------------------------------------------------------:
E---------------------------------------------------------------------------:

(repeat everything up to this point once)

e---------------------------------------------------------------------------:
B---------------------------------------------------------------------------:
G------1-----3--------1-----3-------1---------------------------------------:
D---3-----3--------3-----3-------3------------------------------------------:
A---------------------------------------------------------------------------:
E---------------------------------------------------------------------------:

e---------------------------------------------------------------------------:
B---------------------------------------------------------------------------:
G---------3--------------3--------------------------------------------------:
D---3--0-----3-----3--0-----3----3--0---------------------------------------:
A---------------------------------------------------------------------------:
E---------------------------------------------------------------------------:

\ = slide down


Prime Minister's Reminiscence

 Tabber:
 Film:
 Vocals:
 Artist:
 Type:
 Submitted:

 Miles Imhoff
 Godzilla Against Mechagodzilla
(2002)
 -
 Michiru Oshima
 Guitar
 June 13th, 2007


(eerily)

e
---------------------------------------------------------------------------:
B---------------------------------------------------------------------------:
G-----------3---6---5-------------------------------------------------------:
D---3---6---------------3---6------6---3-------6---3------------------------:
A------------------------------------------4--------------------------------:
E---------------------------------------------------------------------------:

e---------------------------------------------------------------------------:
B---------------------------------------------------------------------------:
G-----------3---6---5-------------------------------------------------------:
D---3---6---------------3---6------6---3-------6---3------------------------:
A------------------------------------------4--------------------------------:
E---------------------------------------------------------------------------:

e---------------------------------------------------------------------------:
B---------------------------------------------------------------------------:
G-----------5------5---3------------------5------5---3----------------------:
D---3---6------------------3------3---6------------------3------------------:
A---------------------------------------------------------------------------:
E---------------------------------------------------------------------------:

e---------------------------------------------------------------------------:
B---------------------------------------------------------------------------:
G-----------5------5---3----------3-----------------------------------------:
D---2---5------------------5----------6---5---2-----------------------------:
A---------------------------------------------------------------------------:
E---------------------------------------------------------------------------:

(powerfully)

e-----------6---9---8-------------------------------------------------------:
B---6---9---------------6---9------9---6-------9---6------------------------:
G------------------------------------------6--------------------------------:
D---------------------------------------------------------------------------:
A---------------------------------------------------------------------------:
E---------------------------------------------------------------------------:

e-----------6---9---8------------------------------1------------------------:
B---6---9---------------6---9------9---6-------9----------------------------:
G------------------------------------------6--------------------------------:
D---------------------------------------------------------------------------:
A---------------------------------------------------------------------------:
E--------------------------------------------------1------------------------:


Doctor Mafune's Past

 Tabber:
 Film:
 Vocals:
 Artist:
 Type:
 Submitted:

 Miles Imhoff
 Terror of Mechagodzilla
(2002)
 -
 Akira Ifukube
 Guitar
 June 20th, 2007


(very slowly and methodically)

----Dm-------A7-Dm--------------Gm---------Dm--Dm---------Dm
e---1--------0--1------1--------3---5-6-3--1---1---1------1------1----------:
B---3-----3--1--3---3----3------3----------3---3-----3----3---3----3--------:
G---2---2----0--2----------2----3----------2---2-------2--2----------2------:
D---0--------1--0---------------0----------0---0----------0-----------------:
A---------------------------------------------------------------------------:
E---------------------------------------------------------------------------:

----Dm--F---Gm--A7
e---1---1---3---0-----------------------------------------------------------:
B---3---1---3---1-----------------------------------------------------------:
G---2---2---3---0-----------------------------------------------------------:
D---0---3---0---1-----------------------------------------------------------:
A---------------0-----------------------------------------------------------:
E---------------------------------------------------------------------------:



Miyarabi's Prayer

 Tabber:
 Film:
 Vocals:
 Artist:
 Type:
 Submitted:

 Miles Imhoff
 Godzilla vs. Mechagodzilla
(1974)
 Beru-Bera Lin
 Beru-Bera Lin
 Guitar
 September 20th, 2008

violin intro
e---------------------------------------------------------------------------:
B
---------------------------------------------------------------------------:
G---------------------------------------------------------------------------:
D---10--10--13-10-------------------10--10--13-10--------------------10-----:
A-------------------10--10--13-10--------------------10--10--13-10----------:
E---------------------------------------------------------------------------:


vocals

e---------------------------------------------------------------------------:
---------------------------------------------------------------------------:
G---------------------------------------------------------------------------:
D---------------------------------------------------------------------------:
A----------------------10--10--10--10---8-10---10---------------------------:
E---3--3--3--3--3--3--------------------------------------------------------:

e---------------------------------------------------------------------------:
B
---------------------------------------------------------------------------:
G---------------------------------------------------------------------------:
D---------------------------------------------------------------------------:
A----------------------------------------8---8---10--8--10------8-----------:
E---8---8---8---11---11---10---10---10----------------------11-----11--8----:

violin

e---------------------------------------------------------------------------:
---------------------------------------------------------------------------:
G-------10------------------------------------------------------------------:
D---10------13---10---------------------------------------------------------:
A---------------------------------------------------------------------------:
E---------------------------------------------------------------------------:



e---------------------------------------------------------------------------:
---------------------------------------------------------------------------:
G---------------------------------------------------------------------------:
D---------------------------------------------------8-----------------------:
A---10--10--10--10---11--8----8--10--11--8--10--11-----11--10--8--10--8-----:
E---------------------------------------------------------------------------:


e---------------------------------------------------------------------------:
---------------------------------------------------------------------------:
G---------------------------------------------------------------------------:
D---------------------------------------------------------------------------:
A---11b---8----------------------------------------10b--8-------------------:
E-------------8--8--8--11--11--11--10--10--10--10----------11--10p8h10------:


violin

e---------------------------------------------------------------------------:
---------------------------------------------------------------------------:
G---13p10-------------------------------------------------------------------:
D---------13h10-------------------------------------------------------------:
A----------------10---------------------------------------------------------:
E---------------------------------------------------------------------------:



e---------------------------------------------------------------------------:
---------------------------------------------------------------------------:
G---------------------------------------------------------------------------:
D---------------------------------------------------------------------------:
A------------10--10--10-----------------------------------------------------:
E---8--8--8----------------4--4--4--4/13\8----------------------------------:


violin

e---------------------------------------------------------------------------:
---------------------------------------------------------------------------:
G-------------10h12---------------------------------------------------------:
D---10h12h13----------------------------------------------------------------:
A---------------------------------------------------------------------------:
E---------------------------------------------------------------------------:



e---------------------------------------------------------------------------:
---------------------------------------------------------------------------:
G---------------------------------------------------------------------------:
D-----------------------------------------8-8-8-----------8--10-10-10-------:
A---10--10--10--10---11---8----8--10--11----------10--11--------------------:
E---------------------------------------------------------------------------:


e---------------------------------------------------------------------------:
---------------------------------------------------------------------------:
G---------------------------------------------------------------------------:
D---13---10-----13---10----13b---10----------10--12--10--9------------------:
A-------------------------------------------------------------10--10-10--10-:
E---------------------------------------------------------------------------:

E---CAE--SAR!---CAE--SAR!--CAE--SAR!

e---------------------------------------------------------------------------:
---------------------------------------------------------------------------:
G---------------------------------------------------------------------------:
D---13s----------10s--------------------------------------------------------:
A---------------------------------------------------------------------------:
E---------------------------------------------------------------------------:

E---CAE----------SAR!

piano

e---------------------------------------------------------------------------:
---------------------------------------------------------------------------:
G---13p10-------------------------------------------------------------------:
D---------13h10-------------------------------------------------------------:
A---------------10----------------------------------------------------------:
E---------------------------------------------------------------------------:

rinse and lather if you so desire, but definitely repeat

h = hammer-on
p = pull-off
b = bend

s = sustain
/ = slide up
\ = slide down


King Caesar Riff

 Tabber:
 Film:
 Artist:
 Type:
 Submitted:

 Miles Imhoff
 Godzilla vs. Mechagodzilla
(1974)
 Masaru Sato
 Guitar
 June 6th, 2010

e---------------5------8---5------------------------------------------------:
B
-------6-8---9--------------9---8------------------------------------------:
G---7------------------------------8----------------------------------------:
D---------------------------------------------------------------------------:
A---------------------------------------------------------------------------:
E---------------------------------------------------------------------------:


Back to Tablature