Back to Tablature

Godzilla's Theme

 Tabber:
 Film:
 Vocals:
 Artist:
 Type:
 Submitted:

 Miles Imhoff
 
Various
 -
 Akira Ifukube
 Banjo
 October 7th, 2006


D-------6------------------------------------------------------------------:
B---5-------3---4----------------------------------------------------------:
G-------------------2---3------6---5---4------4---3---2--------------------:
D--------------------------------------------------------------------------:
G--------------------------------------------------------------------------:

D--------------------------------------------------------------------------:
B--------------------------------------------------------------------------:
G--------------------------------------------------------------------------:
D---1---2---3---4------1---2---3---4---------------------------------------:
G--------------------------------------------------------------------------:


(repeat everything up to this point once)
=============================================================
D--------------------------------------------------------------------------:
B--------------------------------------------------------------------------:
G--------------------------------------------------------------------------:
D---2---1---2---4------2---4---5------4---5---7------5---7---9---9---------:
G--------------------------------------------------------------------------:

D--------------------------------------------------------------------------:
B--------------------------------------------------------------------------:
G--------------------------------------------------------------------------:
D---2------9---7---5---4---------------------------------------------------:
G--------------------------------------------------------------------------:



Back to Tablature